Duman - Belki Alışmam lazım (elektro tab)

Aşağa gitmek

Duman - Belki Alışmam lazım (elektro tab)

Mesaj  Nharmony1 Bir Çarş. Tem. 02, 2008 11:22 pm

E||--------------------------|--------------------------||
B||--------------------------|--------------------------||
G||--------------------------|-------------------------*||
D||--7----7----10--10--10----|--2--2--2--5----5--5--5--*||
A||--7----7----10--10--10----|--2--2--2--5----5--5--5---||
E||--5----5----8---8---8-----|--0--0--0--3----3--3--3---||



--------------------------|-------------------------|--------------------------|
--------------------------|-------------------------|--------------------------|
--------------------------|-------------------------|--------------------------|
--7----7----10--10--10----|--2--2--2--5----5--5--5--|--7----7----10--10--10----|
--7----7----10--10--10----|--2--2--2--5----5--5--5--|--7----7----10--10--10----|
--5----5----8---8---8-----|--0--0--0--3----3--3--3--|--5----5----8---8---8-----|



-------------------------||---------------------------|
-------------------------||---------------------------|
-------------------------||*--------------------------|
--2--2--2--5----5--5--5--||*--7----7----10--10--10----|
--2--2--2--5----5--5--5--||---7----7----10--10--10----|
--0--0--0--3----3--3--3--||---5----5----8---8---8-----|


2x
--------------------------||-----------------------------------|
--------------------------||-----------------------------------|
-------------------------*||-----------------------------------|
--2--2--2--5----5--5--5--*||--7--------------------------------|
--2--2--2--5----5--5--5---||--7--------------------------------|
--0--0--0--3----3--3--3---||--5--------------------------------|



|-----------------------------|-----------------------|-----------------------|
|-----------------------------|-----------------------|-----------------------|
|*----------------------------|-----------------------|-----------------------|
|*--10----10--10----10--10----|--5----5--5----5--5----|--7----7--7----7--7----|
|---10----10--10----10--10----|--5----5--5----5--5----|--7----7--7----7--7----|
|---8-----8---8-----8---8-----|--3----3--3----3--3----|--5----5--5----5--5----|



------------------------||----------------------------|----------------------|
------------------------||----------------------------|----------------------|
-----------------------*||----------------------------|----------------------|
--7----7--7----7--7----*||--10----10--10----10--10----|--5----5----5----5----|
--7----7--7----7--7-----||--10----10--10----10--10----|--5----5----5----5----|
--5----5--5----5--5-----||--8-----8---8-----8---8-----|--3----3----3----3----|



-----------------------|-----------------------|----------------------------|
-----------------------|-----------------------|----------------------------|
-----------------------|-----------------------|----------------------------|
--7----7--7----7--7----|--7----7--7----7--7----|--10----10--10----10--10----|
--7----7--7----7--7----|--7----7--7----7--7----|--10----10--10----10--10----|
--5----5--5----5--5----|--5----5--5----5--5----|--8-----8---8-----8---8-----|



----------------------|-----------------------------------||
----------------------|-----------------------------------||
----------------------|-----------------------------------||
--5----5----5----5----|--7--------------------------------||
--5----5----5----5----|--7--------------------------------||
--3----3----3----3----|--5--------------------------------||


----------------------------(solo) 2x
E||------|-------||------|------|------|------||-------|-------||------|
B||------|-------||------|------|------|------||-------|-------||------|
G||------|------*||------|------|------|------||*------|------*||------|
D||------|------*||------|------|------|------||*------|------*||------|
A||------|-------||------|------|------|------||-------|-------||------|
E||------|-------||------|------|------|------||-------|-------||------|



|-----------0------------|----------3------------|----------0------------|
|--------1-------1-------|-------0-------0-------|-------1-------1-------|
|*--0---------------0----|--0---------------0----|--2---------------2----|
|*-----------------------|-----------------------|-----------------------|
|------------------------|-----------------------|-----------------------|
|------------------------|-----------------------|-----------------------|



----------0-------------||------|------|------|------|------|------|------||
-------1-------1--------||------|------|------|------|------|------|------||
--2---------------2----*||------|------|------|------|------|------|------||
-----------------------*||------|------|------|------|------|------|------||
------------------------||------|------|------|------|------|------|------||
------------------------||------|------|------|------|------|------|------||
avatar
Nharmony1
Admin

Mesaj Sayısı : 5
Kayıt tarihi : 02/07/08
Yaş : 26
Nerden : Zonguldak/eregli

Kullanıcı profilini gör http://eclipse.yetkinforum.net

Sayfa başına dön Aşağa gitmek

Sayfa başına dön


 
Bu forumun müsaadesi var:
Bu forumdaki mesajlara cevap veremezsiniz